  0
SECTION
  2
HEADER
  9
$ACADVER
  1
AC1015
  9
$ACADMAINTVER
 70
     6
  9
$DWGCODEPAGE
  3
ANSI_1254
  9
$INSBASE
 10
0.0
 20
0.0
 30
0.0
  9
$EXTMIN
 10
0.0
 20
0.0
 30
0.0
  9
$EXTMAX
 10
279.4
 20
215.9
 30
0.0
  9
$LIMMIN
 10
0.0
 20
0.0
  9
$LIMMAX
 10
279.4
 20
215.9
  9
$ORTHOMODE
 70
     0
  9
$REGENMODE
 70
     1
  9
$FILLMODE
 70
     1
  9
$QTEXTMODE
 70
     0
  9
$MIRRTEXT
 70
     1
  9
$LTSCALE
 40
1.0
  9
$ATTMODE
 70
     1
  9
$TEXTSIZE
 40
3.5
  9
$TRACEWID
 40
1.0
  9
$TEXTSTYLE
  7
Standard
  9
$CLAYER
  8
0
  9
$CELTYPE
  6
ByLayer
  9
$CECOLOR
 62
   256
  9
$CELTSCALE
 40
1.0
  9
$DISPSILH
 70
     0
  9
$DIMSCALE
 40
1.0
  9
$DIMASZ
 40
3.5
  9
$DIMEXO
 40
1.0
  9
$DIMDLI
 40
3.75
  9
$DIMRND
 40
0.0
  9
$DIMDLE
 40
0.0
  9
$DIMEXE
 40
1.0
  9
$DIMTP
 40
0.0
  9
$DIMTM
 40
0.0
  9
$DIMTXT
 40
3.5
  9
$DIMCEN
 40
2.5
  9
$DIMTSZ
 40
0.0
  9
$DIMTOL
 70
     0
  9
$DIMLIM
 70
     0
  9
$DIMTIH
 70
     1
  9
$DIMTOH
 70
     1
  9
$DIMSE1
 70
     0
  9
$DIMSE2
 70
     0
  9
$DIMTAD
 70
     1
  9
$DIMZIN
 70
     0
  9
$DIMBLK
  1

  9
$DIMASO
 70
     1
  9
$DIMSHO
 70
     1
  9
$DIMPOST
  1

  9
$DIMAPOST
  1

  9
$DIMALT
 70
     0
  9
$DIMALTD
 70
     3
  9
$DIMALTF
 40
0.0393700787
  9
$DIMLFAC
 40
1.0
  9
$DIMTOFL
 70
     1
  9
$DIMTVP
 40
0.0
  9
$DIMTIX
 70
     0
  9
$DIMSOXD
 70
     0
  9
$DIMSAH
 70
     0
  9
$DIMBLK1
  1

  9
$DIMBLK2
  1

  9
$DIMSTYLE
  2
ISO-25
  9
$DIMCLRD
 70
     0
  9
$DIMCLRE
 70
     0
  9
$DIMCLRT
 70
     0
  9
$DIMTFAC
 40
1.0
  9
$DIMGAP
 40
1.524
  9
$DIMJUST
 70
     0
  9
$DIMSD1
 70
     0
  9
$DIMSD2
 70
     0
  9
$DIMTOLJ
 70
     0
  9
$DIMTZIN
 70
     0
  9
$DIMALTZ
 70
     0
  9
$DIMALTTZ
 70
     0
  9
$DIMUPT
 70
     0
  9
$DIMDEC
 70
     2
  9
$DIMTDEC
 70
     2
  9
$DIMALTU
 70
     2
  9
$DIMALTTD
 70
     3
  9
$DIMTXSTY
  7
Standard
  9
$DIMAUNIT
 70
     0
  9
$DIMADEC
 70
     2
  9
$DIMALTRND
 40
0.0
  9
$DIMAZIN
 70
     0
  9
$DIMDSEP
 70
    44
  9
$DIMATFIT
 70
     3
  9
$DIMFRAC
 70
     0
  9
$DIMLDRBLK
  1

  9
$DIMLUNIT
 70
     2
  9
$DIMLWD
 70
    -2
  9
$DIMLWE
 70
    -2
  9
$DIMTMOVE
 70
     0
  9
$LUNITS
 70
     2
  9
$LUPREC
 70
     2
  9
$SKETCHINC
 40
1.0
  9
$FILLETRAD
 40
10.0
  9
$AUNITS
 70
     0
  9
$AUPREC
 70
     2
  9
$MENU
  1
.
  9
$ELEVATION
 40
0.0
  9
$PELEVATION
 40
0.0
  9
$THICKNESS
 40
0.0
  9
$LIMCHECK
 70
     0
  9
$CHAMFERA
 40
0.0
  9
$CHAMFERB
 40
0.0
  9
$CHAMFERC
 40
0.0
  9
$CHAMFERD
 40
0.0
  9
$SKPOLY
 70
     0
  9
$TDCREATE
 40
2459935.699817048
  9
$TDUCREATE
 40
2459935.574817048
  9
$TDUPDATE
 40
2459935.699817222
  9
$TDUUPDATE
 40
2459935.574817222
  9
$TDINDWG
 40
0.0000000116
  9
$TDUSRTIMER
 40
0.0000000116
  9
$USRTIMER
 70
     1
  9
$ANGBASE
 50
0.0
  9
$ANGDIR
 70
     0
  9
$PDMODE
 70
     0
  9
$PDSIZE
 40
-1.0
  9
$PLINEWID
 40
0.0
  9
$SPLFRAME
 70
     0
  9
$SPLINETYPE
 70
     6
  9
$SPLINESEGS
 70
     8
  9
$HANDSEED
  5
ED
  9
$SURFTAB1
 70
     6
  9
$SURFTAB2
 70
     6
  9
$SURFTYPE
 70
     6
  9
$SURFU
 70
     6
  9
$SURFV
 70
     6
  9
$UCSBASE
  2

  9
$UCSNAME
  2

  9
$UCSORG
 10
0.0
 20
0.0
 30
0.0
  9
$UCSXDIR
 10
1.0
 20
0.0
 30
0.0
  9
$UCSYDIR
 10
0.0
 20
1.0
 30
0.0
  9
$UCSORTHOREF
  2

  9
$UCSORTHOVIEW
 70
     0
  9
$UCSORGTOP
 10
0.0
 20
0.0
 30
0.0
  9
$UCSORGBOTTOM
 10
0.0
 20
0.0
 30
0.0
  9
$UCSORGLEFT
 10
0.0
 20
0.0
 30
0.0
  9
$UCSORGRIGHT
 10
0.0
 20
0.0
 30
0.0
  9
$UCSORGFRONT
 10
0.0
 20
0.0
 30
0.0
  9
$UCSORGBACK
 10
0.0
 20
0.0
 30
0.0
  9
$PUCSBASE
  2

  9
$PUCSNAME
  2

  9
$PUCSORG
 10
0.0
 20
0.0
 30
0.0
  9
$PUCSXDIR
 10
1.0
 20
0.0
 30
0.0
  9
$PUCSYDIR
 10
0.0
 20
1.0
 30
0.0
  9
$PUCSORTHOREF
  2

  9
$PUCSORTHOVIEW
 70
     0
  9
$PUCSORGTOP
 10
0.0
 20
0.0
 30
0.0
  9
$PUCSORGBOTTOM
 10
0.0
 20
0.0
 30
0.0
  9
$PUCSORGLEFT
 10
0.0
 20
0.0
 30
0.0
  9
$PUCSORGRIGHT
 10
0.0
 20
0.0
 30
0.0
  9
$PUCSORGFRONT
 10
0.0
 20
0.0
 30
0.0
  9
$PUCSORGBACK
 10
0.0
 20
0.0
 30
0.0
  9
$USERI1
 70
     0
  9
$USERI2
 70
     0
  9
$USERI3
 70
     0
  9
$USERI4
 70
     0
  9
$USERI5
 70
     0
  9
$USERR1
 40
0.0
  9
$USERR2
 40
0.0
  9
$USERR3
 40
0.0
  9
$USERR4
 40
0.0
  9
$USERR5
 40
0.0
  9
$WORLDVIEW
 70
     1
  9
$SHADEDGE
 70
     3
  9
$SHADEDIF
 70
    70
  9
$TILEMODE
 70
     1
  9
$MAXACTVP
 70
    64
  9
$PINSBASE
 10
0.0
 20
0.0
 30
0.0
  9
$PLIMCHECK
 70
     0
  9
$PEXTMIN
 10
1.0000000000E+20
 20
1.0000000000E+20
 30
1.0000000000E+20
  9
$PEXTMAX
 10
-1.0000000000E+20
 20
-1.0000000000E+20
 30
-1.0000000000E+20
  9
$PLIMMIN
 10
0.0
 20
0.0
  9
$PLIMMAX
 10
420.0
 20
297.0
  9
$UNITMODE
 70
     0
  9
$VISRETAIN
 70
     1
  9
$PLINEGEN
 70
     0
  9
$PSLTSCALE
 70
     1
  9
$TREEDEPTH
 70
  3020
  9
$CMLSTYLE
  2
Standard
  9
$CMLJUST
 70
     0
  9
$CMLSCALE
 40
20.0
  9
$PROXYGRAPHICS
 70
     1
  9
$MEASUREMENT
 70
     1
  9
$CELWEIGHT
370
    -1
  9
$ENDCAPS
280
     0
  9
$JOINSTYLE
280
     0
  9
$LWDISPLAY
290
     1
  9
$INSUNITS
 70
     4
  9
$HYPERLINKBASE
  1

  9
$STYLESHEET
  1

  9
$XEDIT
290
     1
  9
$CEPSNTYPE
380
     0
  9
$PSTYLEMODE
290
     1
  9
$FINGERPRINTGUID
  2
{3879b12c-c2c2-4b79-b062-ae7a0ad56db7}
  9
$VERSIONGUID
  2
{FAEB1C32-E019-11D5-929B-00C0DF256EC4}
  9
$EXTNAMES
290
     1
  9
$PSVPSCALE
 40
0.0
  9
$OLESTARTUP
290
     0
  0
ENDSEC
  0
SECTION
  2
CLASSES
  0
CLASS
  1
ACDBDICTIONARYWDFLT
  2
AcDbDictionaryWithDefault
  3
ObjectDBX Classes
 90
        0
280
     0
281
     0
  0
CLASS
  1
VISUALSTYLE
  2
AcDbVisualStyle
  3
ObjectDBX Classes
 90
     4095
280
     0
281
     0
  0
CLASS
  1
MATERIAL
  2
AcDbMaterial
  3
ObjectDBX Classes
 90
     1153
280
     0
281
     0
  0
CLASS
  1
SCALE
  2
AcDbScale
  3
ObjectDBX Classes
 90
     1153
280
     0
281
     0
  0
CLASS
  1
TABLESTYLE
  2
AcDbTableStyle
  3
ObjectDBX Classes
 90
     4095
280
     0
281
     0
  0
CLASS
  1
MLEADERSTYLE
  2
AcDbMLeaderStyle
  3
ACDB_MLEADERSTYLE_CLASS
 90
     4095
280
     0
281
     0
  0
CLASS
  1
SUN
  2
AcDbSun
  3
SCENEOE
 90
     1153
280
     0
281
     0
  0
CLASS
  1
ACDBPLACEHOLDER
  2
AcDbPlaceHolder
  3
ObjectDBX Classes
 90
        0
280
     0
281
     0
  0
CLASS
  1
LAYOUT
  2
AcDbLayout
  3
ObjectDBX Classes
 90
        0
280
     0
281
     0
  0
ENDSEC
  0
SECTION
  2
TABLES
  0
TABLE
  2
VPORT
  5
8
330
0
100
AcDbSymbolTable
 70
     1
  0
VPORT
  5
29
330
8
100
AcDbSymbolTableRecord
100
AcDbViewportTableRecord
  2
*Active
 70
     0
 10
0.0
 20
0.0
 11
1.0
 21
1.0
 12
139.7
 22
107.95
 13
0.0
 23
0.0
 14
10.0
 24
10.0
 15
10.0
 25
10.0
 16
0.0
 26
0.0
 36
1.0
 17
0.0
 27
0.0
 37
0.0
 40
215.9
 41
1.2941176471
 42
50.0
 43
0.0
 44
0.0
 50
0.0
 51
0.0
 71
     0
 72
  2000
 73
     1
 74
     3
 75
     0
 76
     0
 77
     0
 78
     0
281
     0
 65
     1
110
0.0
120
0.0
130
0.0
111
1.0
121
0.0
131
0.0
112
0.0
122
1.0
132
0.0
 79
     0
146
0.0
  0
ENDTAB
  0
TABLE
  2
LTYPE
  5
5
330
0
100
AcDbSymbolTable
 70
     6
  0
LTYPE
  5
14
330
5
100
AcDbSymbolTableRecord
100
AcDbLinetypeTableRecord
  2
ByBlock
 70
     0
  3

 72
    65
 73
     0
 40
0.0
  0
LTYPE
  5
15
330
5
100
AcDbSymbolTableRecord
100
AcDbLinetypeTableRecord
  2
ByLayer
 70
     0
  3

 72
    65
 73
     0
 40
0.0
  0
LTYPE
  5
16
330
5
100
AcDbSymbolTableRecord
100
AcDbLinetypeTableRecord
  2
Continuous
 70
     0
  3
Solid line
 72
    65
 73
     0
 40
0.0
  0
LTYPE
  5
6E
330
5
100
AcDbSymbolTableRecord
100
AcDbLinetypeTableRecord
  2
HIDDEN
 70
     0
  3
Hidden __ __ __ __ __ __ __ __ __ __ __ __ __ __
 72
    65
 73
     2
 40
1.905
 49
1.27
 74
     0
 49
-0.635
 74
     0
  0
LTYPE
  5
6F
330
5
100
AcDbSymbolTableRecord
100
AcDbLinetypeTableRecord
  2
PHANTOM
 70
     0
  3
Phantom ______  __  __  ______  __  __  ______
 72
    65
 73
     6
 40
12.7
 49
6.35
 74
     0
 49
-1.27
 74
     0
 49
1.27
 74
     0
 49
-1.27
 74
     0
 49
1.27
 74
     0
 49
-1.27
 74
     0
  0
LTYPE
  5
70
330
5
100
AcDbSymbolTableRecord
100
AcDbLinetypeTableRecord
  2
CENTER
 70
     0
  3
Center ____ _ ____ _ ____ _ ____ _ ____ _ ____
 72
    65
 73
     4
 40
10.16
 49
6.35
 74
     0
 49
-1.27
 74
     0
 49
1.27
 74
     0
 49
-1.27
 74
     0
  0
LTYPE
  5
71
330
5
100
AcDbSymbolTableRecord
100
AcDbLinetypeTableRecord
  2
CENTERX2
 70
     0
  3
Center (2x) ________  __  ________  __  _____
 72
    65
 73
     4
 40
20.32
 49
12.7
 74
     0
 49
-2.54
 74
     0
 49
2.54
 74
     0
 49
-2.54
 74
     0
  0
LTYPE
  5
72
330
5
100
AcDbSymbolTableRecord
100
AcDbLinetypeTableRecord
  2
DOT2
 70
     0
  3
Dot (.5x) ........................................
 72
    65
 73
     2
 40
0.635
 49
0.0
 74
     0
 49
-0.635
 74
     0
  0
ENDTAB
  0
TABLE
  2
LAYER
  5
2
330
0
100
AcDbSymbolTable
 70
    17
  0
LAYER
  5
10
330
2
100
AcDbSymbolTableRecord
100
AcDbLayerTableRecord
  2
0
 70
     0
 62
     7
  6
Continuous
370
    -3
390
F
  0
LAYER
  5
73
330
2
100
AcDbSymbolTableRecord
100
AcDbLayerTableRecord
  2
FORMAT
 70
     0
 62
     7
  6
Continuous
370
    -3
390
F
  0
LAYER
  5
74
330
2
100
AcDbSymbolTableRecord
100
AcDbLayerTableRecord
  2
YARDIMCI_GEOMETRI
 70
     0
 62
    -6
  6
Continuous
290
     0
370
    -3
390
F
  0
LAYER
  5
75
330
2
100
AcDbSymbolTableRecord
100
AcDbLayerTableRecord
  2
SAYFA_CERCEVESI
 70
     0
 62
     7
  6
Continuous
370
    25
390
F
  0
LAYER
  5
76
330
2
100
AcDbSymbolTableRecord
100
AcDbLayerTableRecord
  2
ANTET
 70
     0
 62
     7
  6
Continuous
370
    -3
390
F
  0
LAYER
  5
77
330
2
100
AcDbSymbolTableRecord
100
AcDbLayerTableRecord
  2
OLCU
 70
     0
 62
   150
  6
Continuous
370
    -3
390
F
  0
LAYER
  5
78
330
2
100
AcDbSymbolTableRecord
100
AcDbLayerTableRecord
  2
METIN
 70
     0
 62
    96
  6
Continuous
370
    -3
390
F
  0
LAYER
  5
79
330
2
100
AcDbSymbolTableRecord
100
AcDbLayerTableRecord
  2
BALON
 70
     0
 62
     5
  6
Continuous
370
    -3
390
F
  0
LAYER
  5
7A
330
2
100
AcDbSymbolTableRecord
100
AcDbLayerTableRecord
  2
VURGU
 70
     0
 62
     7
  6
Continuous
370
    -3
390
F
  0
LAYER
  5
7B
330
2
100
AcDbSymbolTableRecord
100
AcDbLayerTableRecord
  2
SILIK
 70
     0
 62
     7
  6
Continuous
370
    -3
390
F
  0
LAYER
  5
7C
330
2
100
AcDbSymbolTableRecord
100
AcDbLayerTableRecord
  2
MODEL
 70
     0
 62
     7
  6
Continuous
370
    -3
390
F
  0
LAYER
  5
7D
330
2
100
AcDbSymbolTableRecord
100
AcDbLayerTableRecord
  2
DETAYLANDıRMA
 70
     0
 62
   190
  6
Continuous
370
    -3
390
F
  0
LAYER
  5
7E
330
2
100
AcDbSymbolTableRecord
100
AcDbLayerTableRecord
  2
TOLERANS
 70
     0
 62
   230
  6
Continuous
370
    -3
390
F
  0
LAYER
  5
7F
330
2
100
AcDbSymbolTableRecord
100
AcDbLayerTableRecord
  2
MERKEZ_CIZGILERI
 70
     0
 62
    30
  6
Continuous
370
    -3
390
F
  0
LAYER
  5
80
330
2
100
AcDbSymbolTableRecord
100
AcDbLayerTableRecord
  2
KESIT-DETAY_CIZGILERI
 70
     0
 62
     7
  6
Continuous
370
    -3
390
F
  0
LAYER
  5
81
330
2
100
AcDbSymbolTableRecord
100
AcDbLayerTableRecord
  2
\U+041E\U+0421\U+0415\U+0412\U+042B\U+0415
 70
     0
 62
     7
  6
Continuous
370
    -3
390
F
  0
LAYER
  5
82
330
2
100
AcDbSymbolTableRecord
100
AcDbLayerTableRecord
  2
\U+0412\U+041E\U+0414\U+042F\U+041D\U+042B\U+0415_\U+0417\U+041D\U+0410\U+041A\U+0418
 70
     0
 62
    11
  6
Continuous
370
    -3
390
F
  0
ENDTAB
  0
TABLE
  2
STYLE
  5
3
330
0
100
AcDbSymbolTable
 70
     1
  0
STYLE
  5
11
330
3
100
AcDbSymbolTableRecord
100
AcDbTextStyleTableRecord
  2
Standard
 70
     0
 40
0.0
 41
1.0
 50
0.0
 71
     0
 42
3.5
  3
txt
  4

  0
ENDTAB
  0
TABLE
  2
VIEW
  5
6
330
0
100
AcDbSymbolTable
 70
     0
  0
ENDTAB
  0
TABLE
  2
UCS
  5
7
330
0
100
AcDbSymbolTable
 70
     0
  0
ENDTAB
  0
TABLE
  2
APPID
  5
9
330
0
100
AcDbSymbolTable
 70
     1
  0
APPID
  5
12
330
9
100
AcDbSymbolTableRecord
100
AcDbRegAppTableRecord
  2
ACAD
 70
     0
  0
ENDTAB
  0
TABLE
  2
DIMSTYLE
  5
A
330
0
100
AcDbSymbolTable
 70
     1
100
AcDbDimStyleTable
  0
DIMSTYLE
105
27
330
A
100
AcDbSymbolTableRecord
100
AcDbDimStyleTableRecord
  2
ISO-25
 70
     0
 41
2.5
 42
0.625
 43
3.75
 44
1.25
 73
     0
 74
     0
 77
     1
 78
     8
140
2.5
141
2.5
143
0.0393700787
147
0.625
171
     3
172
     1
178
     0
271
     2
272
     2
274
     3
278
    44
283
     0
284
     8
340
11
  0
ENDTAB
  0
TABLE
  2
BLOCK_RECORD
  5
1
330
0
100
AcDbSymbolTable
 70
     5
  0
BLOCK_RECORD
  5
1F
330
1
100
AcDbSymbolTableRecord
100
AcDbBlockTableRecord
  2
*Model_Space
340
22
  0
BLOCK_RECORD
  5
1B
330
1
100
AcDbSymbolTableRecord
100
AcDbBlockTableRecord
  2
*Paper_Space
340
1E
  0
BLOCK_RECORD
  5
23
330
1
100
AcDbSymbolTableRecord
100
AcDbBlockTableRecord
  2
*Paper_Space0
340
26
  0
BLOCK_RECORD
  5
97
330
1
100
AcDbSymbolTableRecord
100
AcDbBlockTableRecord
  2
SW_CENTERMARKSYMBOL_0
340
0
102
{BLKREFS
331
A2
102
}
  0
BLOCK_RECORD
  5
AC
330
1
100
AcDbSymbolTableRecord
100
AcDbBlockTableRecord
  2
SW_CENTERMARKSYMBOL_1
340
0
102
{BLKREFS
331
B7
102
}
  0
BLOCK_RECORD
  5
BF
330
1
100
AcDbSymbolTableRecord
100
AcDbBlockTableRecord
  2
SW_CENTERMARKSYMBOL_2
340
0
102
{BLKREFS
331
CA
102
}
  0
BLOCK_RECORD
  5
D2
330
1
100
AcDbSymbolTableRecord
100
AcDbBlockTableRecord
  2
SW_CENTERMARKSYMBOL_3
340
0
102
{BLKREFS
331
DD
102
}
  0
ENDTAB
  0
ENDSEC
  0
SECTION
  2
BLOCKS
  0
BLOCK
  5
20
330
1F
100
AcDbEntity
  8
0
100
AcDbBlockBegin
  2
*Model_Space
 70
     0
 10
0.0
 20
0.0
 30
0.0
  3
*Model_Space
  1

  0
ENDBLK
  5
21
330
1F
100
AcDbEntity
  8
0
100
AcDbBlockEnd
  0
BLOCK
  5
1C
330
1B
100
AcDbEntity
 67
     1
  8
0
100
AcDbBlockBegin
  2
*Paper_Space
 70
     0
 10
0.0
 20
0.0
 30
0.0
  3
*Paper_Space
  1

  0
ENDBLK
  5
1D
330
1B
100
AcDbEntity
 67
     1
  8
0
100
AcDbBlockEnd
  0
BLOCK
  5
24
330
23
100
AcDbEntity
  8
0
100
AcDbBlockBegin
  2
*Paper_Space0
 70
     0
 10
0.0
 20
0.0
 30
0.0
  3
*Paper_Space0
  1

  0
ENDBLK
  5
25
330
23
100
AcDbEntity
  8
0
100
AcDbBlockEnd
  0
BLOCK
  5
98
330
97
100
AcDbEntity
  8
0
100
AcDbBlockBegin
  2
SW_CENTERMARKSYMBOL_0
 70
     0
 10
0.0
 20
0.0
 30
0.0
  3
SW_CENTERMARKSYMBOL_0
  1

  0
LINE
  5
9A
330
97
100
AcDbEntity
  8
FORMAT
 62
     0
100
AcDbLine
 10
0.0
 20
0.0
 30
0.0
 11
0.0
 21
2.5
 31
0.0
  0
LINE
  5
9B
330
97
100
AcDbEntity
  8
FORMAT
 62
     0
100
AcDbLine
 10
0.0
 20
0.0
 30
0.0
 11
-2.5
 21
0.0
 31
0.0
  0
LINE
  5
9C
330
97
100
AcDbEntity
  8
FORMAT
 62
     0
100
AcDbLine
 10
0.0
 20
0.0
 30
0.0
 11
0.0
 21
-2.5
 31
0.0
  0
LINE
  5
9D
330
97
100
AcDbEntity
  8
FORMAT
 62
     0
100
AcDbLine
 10
0.0
 20
0.0
 30
0.0
 11
2.5
 21
0.0
 31
0.0
  0
LINE
  5
9E
330
97
100
AcDbEntity
  8
FORMAT
 62
     0
100
AcDbLine
 10
0.0
 20
5.0
 30
0.0
 11
0.0
 21
40.0
 31
0.0
  0
LINE
  5
9F
330
97
100
AcDbEntity
  8
FORMAT
 62
     0
100
AcDbLine
 10
-5.0
 20
0.0
 30
0.0
 11
-40.0
 21
0.0
 31
0.0
  0
LINE
  5
A0
330
97
100
AcDbEntity
  8
FORMAT
 62
     0
100
AcDbLine
 10
0.0
 20
-5.0
 30
0.0
 11
0.0
 21
-40.0
 31
0.0
  0
LINE
  5
A1
330
97
100
AcDbEntity
  8
FORMAT
 62
     0
100
AcDbLine
 10
5.0
 20
0.0
 30
0.0
 11
40.0
 21
0.0
 31
0.0
  0
ENDBLK
  5
99
330
97
100
AcDbEntity
  8
0
100
AcDbBlockEnd
  0
BLOCK
  5
AD
330
AC
100
AcDbEntity
  8
0
100
AcDbBlockBegin
  2
SW_CENTERMARKSYMBOL_1
 70
     0
 10
0.0
 20
0.0
 30
0.0
  3
SW_CENTERMARKSYMBOL_1
  1

  0
LINE
  5
AF
330
AC
100
AcDbEntity
  8
FORMAT
 62
     0
100
AcDbLine
 10
0.0
 20
0.0
 30
0.0
 11
0.0
 21
2.5
 31
0.0
  0
LINE
  5
B0
330
AC
100
AcDbEntity
  8
FORMAT
 62
     0
100
AcDbLine
 10
0.0
 20
0.0
 30
0.0
 11
-2.5
 21
0.0
 31
0.0
  0
LINE
  5
B1
330
AC
100
AcDbEntity
  8
FORMAT
 62
     0
100
AcDbLine
 10
0.0
 20
0.0
 30
0.0
 11
0.0
 21
-2.5
 31
0.0
  0
LINE
  5
B2
330
AC
100
AcDbEntity
  8
FORMAT
 62
     0
100
AcDbLine
 10
0.0
 20
0.0
 30
0.0
 11
2.5
 21
0.0
 31
0.0
  0
LINE
  5
B3
330
AC
100
AcDbEntity
  8
FORMAT
 62
     0
100
AcDbLine
 10
0.0
 20
5.0
 30
0.0
 11
0.0
 21
40.0
 31
0.0
  0
LINE
  5
B4
330
AC
100
AcDbEntity
  8
FORMAT
 62
     0
100
AcDbLine
 10
-5.0
 20
0.0
 30
0.0
 11
-40.0
 21
0.0
 31
0.0
  0
LINE
  5
B5
330
AC
100
AcDbEntity
  8
FORMAT
 62
     0
100
AcDbLine
 10
0.0
 20
-5.0
 30
0.0
 11
0.0
 21
-40.0
 31
0.0
  0
LINE
  5
B6
330
AC
100
AcDbEntity
  8
FORMAT
 62
     0
100
AcDbLine
 10
5.0
 20
0.0
 30
0.0
 11
40.0
 21
0.0
 31
0.0
  0
ENDBLK
  5
AE
330
AC
100
AcDbEntity
  8
0
100
AcDbBlockEnd
  0
BLOCK
  5
C0
330
BF
100
AcDbEntity
  8
0
100
AcDbBlockBegin
  2
SW_CENTERMARKSYMBOL_2
 70
     0
 10
0.0
 20
0.0
 30
0.0
  3
SW_CENTERMARKSYMBOL_2
  1

  0
LINE
  5
C2
330
BF
100
AcDbEntity
  8
FORMAT
 62
     0
100
AcDbLine
 10
0.0
 20
0.0
 30
0.0
 11
0.0
 21
2.5
 31
0.0
  0
LINE
  5
C3
330
BF
100
AcDbEntity
  8
FORMAT
 62
     0
100
AcDbLine
 10
0.0
 20
0.0
 30
0.0
 11
-2.5
 21
0.0
 31
0.0
  0
LINE
  5
C4
330
BF
100
AcDbEntity
  8
FORMAT
 62
     0
100
AcDbLine
 10
0.0
 20
0.0
 30
0.0
 11
0.0
 21
-2.5
 31
0.0
  0
LINE
  5
C5
330
BF
100
AcDbEntity
  8
FORMAT
 62
     0
100
AcDbLine
 10
0.0
 20
0.0
 30
0.0
 11
2.5
 21
0.0
 31
0.0
  0
LINE
  5
C6
330
BF
100
AcDbEntity
  8
FORMAT
 62
     0
100
AcDbLine
 10
0.0
 20
5.0
 30
0.0
 11
0.0
 21
40.0
 31
0.0
  0
LINE
  5
C7
330
BF
100
AcDbEntity
  8
FORMAT
 62
     0
100
AcDbLine
 10
-5.0
 20
0.0
 30
0.0
 11
-40.0
 21
0.0
 31
0.0
  0
LINE
  5
C8
330
BF
100
AcDbEntity
  8
FORMAT
 62
     0
100
AcDbLine
 10
0.0
 20
-5.0
 30
0.0
 11
0.0
 21
-40.0
 31
0.0
  0
LINE
  5
C9
330
BF
100
AcDbEntity
  8
FORMAT
 62
     0
100
AcDbLine
 10
5.0
 20
0.0
 30
0.0
 11
40.0
 21
0.0
 31
0.0
  0
ENDBLK
  5
C1
330
BF
100
AcDbEntity
  8
0
100
AcDbBlockEnd
  0
BLOCK
  5
D3
330
D2
100
AcDbEntity
  8
0
100
AcDbBlockBegin
  2
SW_CENTERMARKSYMBOL_3
 70
     0
 10
0.0
 20
0.0
 30
0.0
  3
SW_CENTERMARKSYMBOL_3
  1

  0
LINE
  5
D5
330
D2
100
AcDbEntity
  8
FORMAT
 62
     0
100
AcDbLine
 10
0.0
 20
0.0
 30
0.0
 11
0.0
 21
2.5
 31
0.0
  0
LINE
  5
D6
330
D2
100
AcDbEntity
  8
FORMAT
 62
     0
100
AcDbLine
 10
0.0
 20
0.0
 30
0.0
 11
-2.5
 21
0.0
 31
0.0
  0
LINE
  5
D7
330
D2
100
AcDbEntity
  8
FORMAT
 62
     0
100
AcDbLine
 10
0.0
 20
0.0
 30
0.0
 11
0.0
 21
-2.5
 31
0.0
  0
LINE
  5
D8
330
D2
100
AcDbEntity
  8
FORMAT
 62
     0
100
AcDbLine
 10
0.0
 20
0.0
 30
0.0
 11
2.5
 21
0.0
 31
0.0
  0
LINE
  5
D9
330
D2
100
AcDbEntity
  8
FORMAT
 62
     0
100
AcDbLine
 10
0.0
 20
5.0
 30
0.0
 11
0.0
 21
40.0
 31
0.0
  0
LINE
  5
DA
330
D2
100
AcDbEntity
  8
FORMAT
 62
     0
100
AcDbLine
 10
-5.0
 20
0.0
 30
0.0
 11
-40.0
 21
0.0
 31
0.0
  0
LINE
  5
DB
330
D2
100
AcDbEntity
  8
FORMAT
 62
     0
100
AcDbLine
 10
0.0
 20
-5.0
 30
0.0
 11
0.0
 21
-40.0
 31
0.0
  0
LINE
  5
DC
330
D2
100
AcDbEntity
  8
FORMAT
 62
     0
100
AcDbLine
 10
5.0
 20
0.0
 30
0.0
 11
40.0
 21
0.0
 31
0.0
  0
ENDBLK
  5
D4
330
D2
100
AcDbEntity
  8
0
100
AcDbBlockEnd
  0
ENDSEC
  0
SECTION
  2
ENTITIES
  0
LINE
  5
83
330
1F
100
AcDbEntity
  8
0
  6
Continuous
 62
     7
370
    25
100
AcDbLine
 10
54.9949574468
 20
113.7739574468
 30
0.0
 11
54.9949574468
 21
25.2739574468
 31
0.0
  0
LINE
  5
84
330
1F
100
AcDbEntity
  8
0
  6
Continuous
 62
     7
370
    25
100
AcDbLine
 10
129.9949574468
 20
25.2739574468
 30
0.0
 11
129.9949574468
 21
113.7739574468
 31
0.0
  0
ARC
  5
85
330
1F
100
AcDbEntity
  8
0
  6
Continuous
 62
     7
370
    25
100
AcDbCircle
 10
129.9949574468
 20
113.7739574468
 30
0.0
 40
75.00000000000003
100
AcDbArc
 50
90.0
 51
180.0
  0
LINE
  5
86
330
1F
100
AcDbEntity
  8
0
  6
Continuous
 62
     7
370
    25
100
AcDbLine
 10
218.4949574468
 20
188.7739574468
 30
0.0
 11
129.9949574468
 21
188.7739574468
 31
0.0
  0
LINE
  5
87
330
1F
100
AcDbEntity
  8
0
  6
Continuous
 62
     7
370
    25
100
AcDbLine
 10
129.9949574468
 20
113.7739574468
 30
0.0
 11
218.4949574468
 21
113.7739574468
 31
0.0
  0
LINE
  5
88
330
1F
100
AcDbEntity
  8
0
  6
Continuous
 62
     7
370
    25
100
AcDbLine
 10
92.4949574468
 20
25.2739574468
 30
0.0
 11
129.9949574468
 21
25.2739574468
 31
0.0
  0
LINE
  5
89
330
1F
100
AcDbEntity
  8
0
  6
Continuous
 62
     7
370
    25
100
AcDbLine
 10
54.9949574468
 20
25.2739574468
 30
0.0
 11
92.4949574468
 21
25.2739574468
 31
0.0
  0
LINE
  5
8A
330
1F
100
AcDbEntity
  8
0
  6
Continuous
 62
     7
370
    25
100
AcDbLine
 10
218.4949574468
 20
151.2739574468
 30
0.0
 11
218.4949574468
 21
113.7739574468
 31
0.0
  0
LINE
  5
8B
330
1F
100
AcDbEntity
  8
0
  6
Continuous
 62
     7
370
    25
100
AcDbLine
 10
218.4949574468
 20
188.7739574468
 30
0.0
 11
218.4949574468
 21
151.2739574468
 31
0.0
  0
LINE
  5
8C
330
1F
100
AcDbEntity
  8
0
  6
Continuous
 62
     1
370
    25
100
AcDbLine
 10
54.9949574468
 20
113.7739574468
 30
0.0
 11
129.9949574468
 21
113.7739574468
 31
0.0
  0
LINE
  5
8D
330
1F
100
AcDbEntity
  8
0
  6
Continuous
 62
     1
370
    25
100
AcDbLine
 10
129.9949574468
 20
188.7739574468
 30
0.0
 11
129.9949574468
 21
113.7739574468
 31
0.0
  0
LINE
  5
8E
330
1F
100
AcDbEntity
  8
0
  6
Continuous
 62
     7
370
    25
100
AcDbLine
 10
-106.4186945017
 20
151.2739574468
 30
0.0
 11
-106.4186945017
 21
113.7739574468
 31
0.0
  0
LINE
  5
8F
330
1F
100
AcDbEntity
  8
0
  6
Continuous
 62
     7
370
    25
100
AcDbLine
 10
-31.4186945017
 20
113.7739574468
 30
0.0
 11
-31.4186945017
 21
151.2739574468
 31
0.0
  0
LINE
  5
90
330
1F
100
AcDbEntity
  8
0
  6
Continuous
 62
     7
370
    25
100
AcDbLine
 10
-106.4186945017
 20
113.7739574468
 30
0.0
 11
-106.4186945017
 21
25.2739574468
 31
0.0
  0
LINE
  5
91
330
1F
100
AcDbEntity
  8
0
  6
Continuous
 62
     7
370
    25
100
AcDbLine
 10
-31.4186945017
 20
25.2739574468
 30
0.0
 11
-31.4186945017
 21
113.7739574468
 31
0.0
  0
CIRCLE
  5
92
330
1F
100
AcDbEntity
  8
0
  6
Continuous
 62
     7
370
    25
100
AcDbCircle
 10
-68.9186945017
 20
151.2739574468
 30
0.0
 40
37.50000000000001
  0
CIRCLE
  5
93
330
1F
100
AcDbEntity
  8
0
  6
Continuous
 62
     7
370
    25
100
AcDbCircle
 10
-68.9186945017
 20
151.2739574468
 30
0.0
 40
33.0
  0
LINE
  5
94
330
1F
100
AcDbEntity
  8
0
  6
Continuous
 62
     7
370
    25
100
AcDbLine
 10
-106.4186945017
 20
25.2739574468
 30
0.0
 11
-31.4186945017
 21
25.2739574468
 31
0.0
  0
LINE
  5
95
330
1F
100
AcDbEntity
  8
0
  6
Continuous
 62
     1
370
    25
100
AcDbLine
 10
-68.9186945017
 20
113.7739574468
 30
0.0
 11
-31.4186945017
 21
113.7739574468
 31
0.0
  0
LINE
  5
96
330
1F
100
AcDbEntity
  8
0
  6
Continuous
 62
     1
370
    25
100
AcDbLine
 10
-106.4186945017
 20
113.7739574468
 30
0.0
 11
-68.9186945017
 21
113.7739574468
 31
0.0
  0
INSERT
  5
A2
330
1F
100
AcDbEntity
  8
FORMAT
 62
     7
100
AcDbBlockReference
  2
SW_CENTERMARKSYMBOL_0
 10
-68.9186945017
 20
151.2739574468
 30
0.0
  0
LINE
  5
A3
330
1F
100
AcDbEntity
  8
0
  6
Continuous
 62
     7
370
    25
100
AcDbLine
 10
218.4949574468
 20
327.6366407486
 30
0.0
 11
129.9949574468
 21
327.6366407486
 31
0.0
  0
LINE
  5
A4
330
1F
100
AcDbEntity
  8
0
  6
Continuous
 62
     7
370
    25
100
AcDbLine
 10
129.9949574468
 20
252.6366407486
 30
0.0
 11
218.4949574468
 21
252.6366407486
 31
0.0
  0
LINE
  5
A5
330
1F
100
AcDbEntity
  8
0
  6
Continuous
 62
     7
370
    25
100
AcDbLine
 10
129.9949574468
 20
327.6366407486
 30
0.0
 11
92.4949574468
 21
327.6366407486
 31
0.0
  0
LINE
  5
A6
330
1F
100
AcDbEntity
  8
0
  6
Continuous
 62
     7
370
    25
100
AcDbLine
 10
92.4949574468
 20
252.6366407486
 30
0.0
 11
129.9949574468
 21
252.6366407486
 31
0.0
  0
CIRCLE
  5
A7
330
1F
100
AcDbEntity
  8
0
  6
Continuous
 62
     7
370
    25
100
AcDbCircle
 10
92.4949574468
 20
290.1366407486
 30
0.0
 40
33.0
  0
CIRCLE
  5
A8
330
1F
100
AcDbEntity
  8
0
  6
Continuous
 62
     7
370
    25
100
AcDbCircle
 10
92.4949574468
 20
290.1366407486
 30
0.0
 40
37.5
  0
LINE
  5
A9
330
1F
100
AcDbEntity
  8
0
  6
Continuous
 62
     7
370
    25
100
AcDbLine
 10
218.4949574468
 20
327.6366407486
 30
0.0
 11
218.4949574468
 21
252.6366407486
 31
0.0
  0
LINE
  5
AA
330
1F
100
AcDbEntity
  8
0
  6
Continuous
 62
     1
370
    25
100
AcDbLine
 10
129.9949574468
 20
290.1366407486
 30
0.0
 11
129.9949574468
 21
252.6366407486
 31
0.0
  0
LINE
  5
AB
330
1F
100
AcDbEntity
  8
0
  6
Continuous
 62
     1
370
    25
100
AcDbLine
 10
129.9949574468
 20
327.6366407486
 30
0.0
 11
129.9949574468
 21
290.1366407486
 31
0.0
  0
INSERT
  5
B7
330
1F
100
AcDbEntity
  8
FORMAT
 62
     7
100
AcDbBlockReference
  2
SW_CENTERMARKSYMBOL_1
 10
92.4949574468
 20
290.1366407486
 30
0.0
  0
LINE
  5
B8
330
1F
100
AcDbEntity
  8
0
  6
Continuous
 62
     7
370
    25
100
AcDbLine
 10
276.2882734976
 20
113.7739574468
 30
0.0
 11
276.2882734976
 21
25.2739574468
 31
0.0
  0
LINE
  5
B9
330
1F
100
AcDbEntity
  8
0
  6
Continuous
 62
     7
370
    25
100
AcDbLine
 10
351.2882734976
 20
25.2739574468
 30
0.0
 11
351.2882734976
 21
113.7739574468
 31
0.0
  0
LINE
  5
BA
330
1F
100
AcDbEntity
  8
0
  6
Continuous
 62
     7
370
    25
100
AcDbLine
 10
351.2882734976
 20
113.7739574468
 30
0.0
 11
351.2882734976
 21
151.2739574468
 31
0.0
  0
LINE
  5
BB
330
1F
100
AcDbEntity
  8
0
  6
Continuous
 62
     7
370
    25
100
AcDbLine
 10
276.2882734976
 20
151.2739574468
 30
0.0
 11
276.2882734976
 21
113.7739574468
 31
0.0
  0
LINE
  5
BC
330
1F
100
AcDbEntity
  8
0
  6
Continuous
 62
     7
370
    25
100
AcDbLine
 10
276.2882734976
 20
25.2739574468
 30
0.0
 11
351.2882734976
 21
25.2739574468
 31
0.0
  0
ARC
  5
BD
330
1F
100
AcDbEntity
  8
0
  6
Continuous
 62
     7
370
    25
100
AcDbCircle
 10
313.7882734976
 20
151.2739574468
 30
0.0
 40
37.50000000000006
100
AcDbArc
 50
0.0
 51
180.0
  0
LINE
  5
BE
330
1F
100
AcDbEntity
  8
0
  6
Continuous
 62
     1
370
    25
100
AcDbLine
 10
276.2882734976
 20
113.7739574468
 30
0.0
 11
351.2882734976
 21
113.7739574468
 31
0.0
  0
INSERT
  5
CA
330
1F
100
AcDbEntity
  8
FORMAT
 62
     7
100
AcDbBlockReference
  2
SW_CENTERMARKSYMBOL_2
 10
313.7882734976
 20
151.2739574468
 30
0.0
  0
LINE
  5
CB
330
1F
100
AcDbEntity
  8
0
  6
Continuous
 62
     7
370
    25
100
AcDbLine
 10
92.4949574468
 20
-139.5928808507
 30
0.0
 11
129.9949574468
 21
-139.5928808507
 31
0.0
  0
LINE
  5
CC
330
1F
100
AcDbEntity
  8
0
  6
Continuous
 62
     7
370
    25
100
AcDbLine
 10
129.9949574468
 20
-64.5928808507
 30
0.0
 11
92.4949574468
 21
-64.5928808507
 31
0.0
  0
LINE
  5
CD
330
1F
100
AcDbEntity
  8
0
  6
Continuous
 62
     7
370
    25
100
AcDbLine
 10
218.4949574468
 20
-64.5928808507
 30
0.0
 11
129.9949574468
 21
-64.5928808507
 31
0.0
  0
LINE
  5
CE
330
1F
100
AcDbEntity
  8
0
  6
Continuous
 62
     7
370
    25
100
AcDbLine
 10
129.9949574468
 20
-139.5928808507
 30
0.0
 11
218.4949574468
 21
-139.5928808507
 31
0.0
  0
ARC
  5
CF
330
1F
100
AcDbEntity
  8
0
  6
Continuous
 62
     7
370
    25
100
AcDbCircle
 10
92.4949574468
 20
-102.0928808507
 30
0.0
 40
37.50000000000003
100
AcDbArc
 50
90.0
 51
270.0
  0
LINE
  5
D0
330
1F
100
AcDbEntity
  8
0
  6
Continuous
 62
     7
370
    25
100
AcDbLine
 10
218.4949574468
 20
-64.5928808507
 30
0.0
 11
218.4949574468
 21
-139.5928808507
 31
0.0
  0
LINE
  5
D1
330
1F
100
AcDbEntity
  8
0
  6
Continuous
 62
     1
370
    25
100
AcDbLine
 10
129.9949574468
 20
-64.5928808507
 30
0.0
 11
129.9949574468
 21
-139.5928808507
 31
0.0
  0
INSERT
  5
DD
330
1F
100
AcDbEntity
  8
FORMAT
 62
     7
100
AcDbBlockReference
  2
SW_CENTERMARKSYMBOL_3
 10
92.4949574468
 20
-102.0928808507
 30
0.0
  0
LINE
  5
DE
330
1F
100
AcDbEntity
  8
0
  6
Continuous
 62
     7
370
    25
100
AcDbLine
 10
367.7393261593
 20
11.2071183106
 30
0.0
 11
305.1603760243
 21
-24.9189406375
 31
0.0
  0
LINE
  5
DF
330
1F
100
AcDbEntity
  8
0
  6
Continuous
 62
     7
370
    25
100
AcDbLine
 10
342.6573284981
 20
-89.8726053161
 30
0.0
 11
405.2362786332
 21
-53.7465463679
 31
0.0
  0
LINE
  5
E0
330
1F
100
AcDbEntity
  8
0
  6
Continuous
 62
     7
370
    25
100
AcDbLine
 10
259.8923479667
 20
-103.3237055192
 30
0.0
 11
259.8923479667
 21
-175.5875673711
 31
0.0
  0
LINE
  5
E1
330
1F
100
AcDbEntity
  8
0
  6
Continuous
 62
     7
370
    25
100
AcDbLine
 10
334.8923479667
 20
-175.5875673711
 30
0.0
 11
334.8923479667
 21
-103.3237055192
 31
0.0
  0
SPLINE
  5
E2
330
1F
100
AcDbEntity
  8
0
  6
Continuous
 62
     7
370
    25
100
AcDbSpline
210
0.0
220
0.0
230
1.0
 70
     8
 71
     3
 72
    36
 73
    32
 74
     0
 42
0.00000001
 43
0.00000001
 40
0.0
 40
0.0
 40
0.0
 40
0.0
 40
0.0228363130402732
 40
0.0579254080975778
 40
0.0931101326053628
 40
0.1284740868487436
 40
0.1639427492068247
 40
0.199435427940199
 40
0.2348998973330989
 40
0.2703024212235432
 40
0.3056236760605613
 40
0.3408571928630594
 40
0.3760071903632081
 40
0.4110863143194792
 40
0.446113569033326
 40
0.4811125560377996
 40
0.5161100209985825
 40
0.5511346448439759
 40
0.5862066197533103
 40
0.6213552061467931
 40
0.6566091695147939
 40
0.6919951401817916
 40
0.7275360943166405
 40
0.7632494445558424
 40
0.7991446783216856
 40
0.8352205771582691
 40
0.8714622207971957
 40
0.9078382331329609
 40
0.94429467194552
 40
0.9807422824354193
 40
0.9999999999999999
 40
0.9999999999999999
 40
0.9999999999999999
 40
0.9999999999999999
 10
305.160376024289
 20
-24.91894063751995
 30
0.0
 10
304.5608695221481
 20
-25.27186523999361
 30
0.0
 10
303.040192400039
 20
-26.16707549525285
 30
0.0
 10
300.6494614599282
 20
-27.71746269208905
 30
0.0
 10
297.9966643204731
 20
-29.58959451643473
 30
0.0
 10
295.4004896871766
 20
-31.58711956388299
 30
0.0
 10
292.8641525217468
 20
-33.70261155716612
 30
0.0
 10
290.3954059292886
 20
-35.92851283450471
 30
0.0
 10
288.0003820065646
 20
-38.25640451174508
 30
0.0
 10
285.6837796109866
 20
-40.6788211419132
 30
0.0
 10
283.4492323824945
 20
-43.18886809406666
 30
0.0
 10
281.2996242256257
 20
-45.78031126298654
 30
0.0
 10
279.2372935441401
 20
-48.4475629922845
 30
0.0
 10
277.2642381734402
 20
-51.18564266635485
 30
0.0
 10
275.3822883542938
 20
-53.99010407627026
 30
0.0
 10
273.5932475536852
 20
-56.85695591173548
 30
0.0
 10
271.899003179602
 20
-59.7825819208983
 30
0.0
 10
270.3017560901672
 20
-62.76339838559387
 30
0.0
 10
268.8039104103187
 20
-65.79601930149676
 30
0.0
 10
267.408117927927
 20
-68.87720343064977
 30
0.0
 10
266.1172259138257
 20
-72.00405890956102
 30
0.0
 10
264.9344635448139
 20
-75.17368066405136
 30
0.0
 10
263.8634901230268
 20
-78.38299680199698
 30
0.0
 10
262.9084156825609
 20
-81.62858778889284
 30
0.0
 10
262.0738223449367
 20
-84.90645798463024
 30
0.0
 10
261.3646425211144
 20
-88.21177671313575
 30
0.0
 10
260.7863522728226
 20
-91.53855930352086
 30
0.0
 10
260.3436803743373
 20
-94.87938361801969
 30
0.0
 10
260.0445505357224
 20
-98.22424830468279
 30
0.0
 10
259.9089667362892
 20
-101.0403930840492
 30
0.0
 10
259.896617264585
 20
-102.7371313528833
 30
0.0
 10
259.8923479667197
 20
-103.3237055191869
 30
0.0
  0
SPLINE
  5
E3
330
1F
100
AcDbEntity
  8
0
  6
Continuous
 62
     7
370
    25
100
AcDbSpline
210
0.0
220
0.0
230
1.0
 70
     8
 71
     3
 72
    32
 73
    28
 74
     0
 42
0.00000001
 43
0.00000001
 40
0.0
 40
0.0
 40
0.0
 40
0.0
 40
0.0142346588022032
 40
0.0589004013374243
 40
0.102038905956272
 40
0.1441087668612023
 40
0.1855166577314223
 40
0.226607693637904
 40
0.2676580740680822
 40
0.3088706387372344
 40
0.3503274835269294
 40
0.3921088724712647
 40
0.4342323800861094
 40
0.4766632132205566
 40
0.5193287413177973
 40
0.5621354269375878
 40
0.6049546256155839
 40
0.6477108271070208
 40
0.6903725788186184
 40
0.7329678140254718
 40
0.7755978597038469
 40
0.8184434202666012
 40
0.8616937095550212
 40
0.9056702066001896
 40
0.950771160255969
 40
0.9974602008252041
 40
1.0
 40
1.0
 40
1.0
 40
1.0
 10
334.892255562975
 20
-103.3451395045688
 30
0.0
 10
334.8921764410331
 20
-103.3496072079479
 30
0.0
 10
334.8918490489824
 20
-103.3680937432236
 30
0.0
 10
334.8971278707222
 20
-103.2610754891532
 30
0.0
 10
334.9240482223836
 20
-103.0224267474275
 30
0.0
 10
334.9825906187302
 20
-102.6475657299345
 30
0.0
 10
335.081672819533
 20
-102.1571703374985
 30
0.0
 10
335.2291724890858
 20
-101.557917217721
 30
0.0
 10
335.43134618548
 20
-100.8618163528846
 30
0.0
 10
335.692588528301
 20
-100.0819374372023
 30
0.0
 10
336.0151299468263
 20
-99.2335928098635
 30
0.0
 10
336.3987844213049
 20
-98.33383751916269
 30
0.0
 10
336.8409415632192
 20
-97.40090926479303
 30
0.0
 10
337.3362520162295
 20
-96.45425817913637
 30
0.0
 10
337.876589962349
 20
-95.5139754203348
 30
0.0
 10
338.4510356403316
 20
-94.60028839095769
 30
0.0
 10
339.0463079883301
 20
-93.73244158428551
 30
0.0
 10
339.6473091247877
 20
-92.92777961995006
 30
0.0
 10
340.2379000836793
 20
-92.2008377078911
 30
0.0
 10
340.8014041514752
 20
-91.56304765728832
 30
0.0
 10
341.3209994337188
 20
-91.02257713882082
 30
0.0
 10
341.7803663987061
 20
-90.58426044731127
 30
0.0
 10
342.1624745608603
 20
-90.2503734632379
 30
0.0
 10
342.4569926368112
 20
-90.01665950336476
 30
0.0
 10
342.6330167432466
 20
-89.88866102310008
 30
0.0
 10
342.7081763647929
 20
-89.84267705665108
 30
0.0
 10
342.6869659899278
 20
-89.85502271819944
 30
0.0
 10
342.6858717107846
 20
-89.85565965177693
 30
0.0
  0
LWPOLYLINE
  5
E4
330
1F
100
AcDbEntity
  8
0
  6
Continuous
 62
     7
370
    25
100
AcDbPolyline
 90
       95
 70
   128
 43
0.0
 10
359.9712981017
 20
-5.962061932
 10
360.0305126743
 20
-8.0414549541
 10
360.2078919254
 20
-10.1799285924
 10
360.5026436362
 20
-12.3679319046
 10
360.913451374
 20
-14.5956927367
 10
361.4384803717
 20
-16.853261368
 10
362.0753857224
 20
-19.1305549491
 10
362.8213228522
 20
-21.4174025338
 10
363.6729602248
 20
-23.7035905059
 10
364.6264942209
 20
-25.9789081947
 10
365.6776661262
 20
-28.2331934793
 10
366.8217811518
 20
-30.4563781742
 10
368.0537294023
 20
-32.6385329969
 10
369.3680086977
 20
-34.7699119143
 10
370.7587491477
 20
-36.8409956707
 10
372.2197393678
 20
-38.8425343034
 10
373.744454221
 20
-40.7655884548
 10
375.3260839606
 20
-42.6015692983
 10
376.9575646443
 20
-44.3422768978
 10
378.6316096833
 20
-45.9799368306
 10
380.3407423861
 20
-47.5072349098
 10
382.0773293511
 20
-48.9173498516
 10
383.8336145594
 20
-50.2039837402
 10
385.6017540149
 20
-51.3613901563
 10
387.3738507775
 20
-52.384399842
 10
389.141990233
 20
-53.2684437877
 10
390.8982754413
 20
-54.0095736384
 10
392.6348624063
 20
-54.6044793284
 10
394.3439951091
 20
-55.0505038645
 10
396.0180401481
 20
-55.3456551927
 10
397.6495208319
 20
-55.4886150956
 10
399.2311505715
 20
-55.4787450796
 10
400.7558654247
 20
-55.3160892265
 10
402.2168556447
 20
-55.001373997
 10
403.6075960947
 20
-54.5360049855
 10
404.9218753902
 20
-53.9220606431
 10
406.1538236407
 20
-53.1622829942
 10
407.2979386663
 20
-52.2600653903
 10
408.3491105716
 20
-51.2194373542
 10
409.3026445677
 20
-50.0450465834
 10
410.1542819402
 20
-48.742138192
 10
410.90021907
 20
-47.3165312852
 10
411.5371244207
 20
-45.7745929697
 10
412.0621534185
 20
-44.1232099161
 10
412.4729611563
 20
-42.3697576021
 10
412.7677128671
 20
-40.5220673715
 10
412.9450921181
 20
-38.5883914572
 10
413.0043066907
 20
-36.5773661253
 10
412.9450921181
 20
-34.4979731032
 10
412.7677128671
 20
-32.3594994649
 10
412.4729611563
 20
-30.1714961527
 10
412.0621534185
 20
-27.9437353206
 10
411.5371244207
 20
-25.6861666892
 10
410.90021907
 20
-23.4088731082
 10
410.1542819402
 20
-21.1220255235
 10
409.3026445677
 20
-18.8358375514
 10
408.3491105716
 20
-16.5605198626
 10
407.2979386663
 20
-14.306234578
 10
406.1538236407
 20
-12.0830498831
 10
404.9218753902
 20
-9.9008950604
 10
403.6075960947
 20
-7.769516143
 10
402.2168556447
 20
-5.6984323865
 10
400.7558654247
 20
-3.6968937539
 10
399.2311505715
 20
-1.7738396025
 10
397.6495208319
 20
0.062141241
 10
396.0180401481
 20
1.8028488405
 10
394.3439951091
 20
3.4405087733
 10
392.6348624063
 20
4.9678068526
 10
390.8982754413
 20
6.3779217943
 10
389.141990233
 20
7.6645556829
 10
387.3738507775
 20
8.821962099
 10
385.6017540149
 20
9.8449717847
 10
383.8336145594
 20
10.7290157304
 10
382.0773293511
 20
11.4701455811
 10
380.3407423861
 20
12.0650512711
 10
378.6316096833
 20
12.5110758072
 10
376.9575646443
 20
12.8062271354
 10
375.3260839606
 20
12.9491870383
 10
373.744454221
 20
12.9393170223
 10
372.2197393678
 20
12.7766611693
 10
370.7587491477
 20
12.4619459397
 10
369.3680086977
 20
11.9965769282
 10
368.0537294023
 20
11.3826325858
 10
366.8217811518
 20
10.622854937
 10
365.6776661262
 20
9.7206373331
 10
364.6264942209
 20
8.680009297
 10
363.6729602248
 20
7.5056185261
 10
362.8213228522
 20
6.2027101347
 10
362.0753857224
 20
4.777103228
 10
361.4384803717
 20
3.2351649124
 10
360.913451374
 20
1.5837818588
 10
360.5026436362
 20
-0.1696704551
 10
360.2078919254
 20
-2.0173606858
 10
360.0305126743
 20
-3.9510366001
 10
359.9712981017
 20
-5.962061932
  0
LWPOLYLINE
  5
E5
330
1F
100
AcDbEntity
  8
0
  6
Continuous
 62
     7
370
    25
100
AcDbPolyline
 90
       89
 70
   128
 43
0.0
 10
363.1532786171
 20
-7.7989801836
 10
363.2127323093
 20
-5.9110073687
 10
363.3907904235
 20
-4.1012990025
 10
363.6865456165
 20
-2.379076944
 10
364.0984907875
 20
-0.7531172418
 10
364.6245267583
 20
0.7682945859
 10
365.2619729703
 20
2.1774057733
 10
366.0075811437
 20
3.4670358127
 10
366.8575518301
 20
4.6306130451
 10
367.8075537737
 20
5.6622081477
 10
368.8527459824
 20
6.5565643482
 10
369.9878023962
 20
7.3091242124
 10
371.2069390279
 20
7.9160528678
 10
372.5039434367
 20
8.374257545
 10
373.8722063853
 20
8.6814033382
 10
375.3047555195
 20
8.8359251026
 10
376.7942908971
 20
8.8370354309
 10
378.3332221874
 20
8.684728665
 10
379.9137073492
 20
8.3797809253
 10
381.5276925925
 20
7.9237461556
 10
383.1669534184
 20
7.3189482045
 10
384.8231365295
 20
6.5684689838
 10
386.4878023962
 20
5.6761327636
 10
388.152468263
 20
4.6464866846
 10
389.808651374
 20
3.4847775874
 10
391.4479121999
 20
2.1969252751
 10
393.0618974432
 20
0.7894923479
 10
394.642382605
 20
-0.7303492385
 10
396.1813138953
 20
-2.3548547199
 10
397.670849273
 20
-4.0757459886
 10
399.1033984071
 20
-5.8842537773
 10
400.4716613558
 20
-7.7711623447
 10
401.7686657645
 20
-9.7268564374
 10
402.9878023962
 20
-11.7413702865
 10
404.1228588101
 20
-13.8044383912
 10
405.1680510188
 20
-15.9055478293
 10
406.1180529624
 20
-18.0339918289
 10
406.9680236487
 20
-20.178924327
 10
407.7136318221
 20
-22.3294152395
 10
408.3510780341
 20
-24.4745061575
 10
408.877114005
 20
-26.6032661894
 10
409.289059176
 20
-28.704847662
 10
409.5848143689
 20
-30.768541398
 10
409.7628724832
 20
-32.783831287
 10
409.8223261754
 20
-34.7404478737
 10
409.7628724832
 20
-36.6284206885
 10
409.5848143689
 20
-38.4381290547
 10
409.289059176
 20
-40.1603511133
 10
408.877114005
 20
-41.7863108155
 10
408.3510780341
 20
-43.3077226432
 10
407.7136318221
 20
-44.7168338306
 10
406.9680236487
 20
-46.00646387
 10
406.1180529624
 20
-47.1700411024
 10
405.1680510188
 20
-48.201636205
 10
404.1228588101
 20
-49.0959924054
 10
402.9878023962
 20
-49.8485522697
 10
401.7686657645
 20
-50.4554809251
 10
400.4716613558
 20
-50.9136856023
 10
399.1033984071
 20
-51.2208313955
 10
397.670849273
 20
-51.3753531599
 10
396.1813138953
 20
-51.3764634882
 10
394.642382605
 20
-51.2241567223
 10
393.0618974432
 20
-50.9192089826
 10
391.4479121999
 20
-50.4631742129
 10
389.808651374
 20
-49.8583762618
 10
388.152468263
 20
-49.1078970411
 10
386.4878023962
 20
-48.2155608209
 10
384.8231365295
 20
-47.1859147419
 10
383.1669534184
 20
-46.0242056446
 10
381.5276925925
 20
-44.7363533323
 10
379.9137073492
 20
-43.3289204052
 10
378.3332221874
 20
-41.8090788187
 10
376.7942908971
 20
-40.1845733374
 10
375.3047555195
 20
-38.4636820687
 10
373.8722063853
 20
-36.65517428
 10
372.5039434367
 20
-34.7682657126
 10
371.2069390279
 20
-32.8125716199
 10
369.9878023962
 20
-30.7980577708
 10
368.8527459824
 20
-28.7349896661
 10
367.8075537737
 20
-26.633880228
 10
366.8575518301
 20
-24.5054362284
 10
366.0075811437
 20
-22.3605037303
 10
365.2619729703
 20
-20.2100128178
 10
364.6245267583
 20
-18.0649218998
 10
364.0984907875
 20
-15.9361618679
 10
363.6865456165
 20
-13.8345803952
 10
363.3907904235
 20
-11.7708866593
 10
363.2127323093
 20
-9.7555967703
 10
363.1532786171
 20
-7.7989801836
  0
LWPOLYLINE
  5
E6
330
1F
100
AcDbEntity
  8
0
  6
Continuous
 62
     7
370
    25
100
AcDbPolyline
 90
       95
 70
   128
 43
0.0
 10
270.8758436722
 20
-160.2799152744
 10
272.7061654043
 20
-159.2916607195
 10
274.6467416205
 20
-158.3761876397
 10
276.6889052361
 20
-157.5375847598
 10
278.8235354528
 20
-156.779597484
 10
281.0410984938
 20
-156.1056111674
 10
283.3316901843
 20
-155.5186359965
 10
285.6850801858
 20
-155.021293545
 10
288.0907576871
 20
-154.6158050649
 10
290.5379783486
 20
-154.3039815662
 10
293.0158122888
 20
-154.0872157284
 10
295.5131928997
 20
-153.9664756803
 10
298.0189662733
 20
-153.9423006763
 10
300.5219410175
 20
-154.0147986879
 10
303.0109382393
 20
-154.1836459212
 10
305.4748414731
 20
-154.4480882637
 10
307.9026463288
 20
-154.8069446515
 10
310.2835096406
 20
-155.2586123449
 10
312.606797895
 20
-155.8010740864
 10
314.8621347227
 20
-156.4319071102
 10
317.0394472418
 20
-157.1482939628
 10
319.1290110462
 20
-157.9470350867
 10
321.1214936366
 20
-158.82456311
 10
323.0079961021
 20
-159.7769587797
 10
324.7800928648
 20
-160.7999684654
 10
326.4298693103
 20
-161.8890231575
 10
327.9499571364
 20
-163.0392588735
 10
329.3335672621
 20
-164.2455383814
 10
330.5745201485
 20
-165.5024741441
 10
331.6672733989
 20
-166.8044523813
 10
332.6069465119
 20
-168.1456581422
 10
333.3893426793
 20
-169.5201012763
 10
334.01096753
 20
-170.9216431868
 10
334.4690447364
 20
-172.3440242475
 10
334.7615284145
 20
-173.7808917591
 10
334.8871122612
 20
-175.2258283225
 10
334.8452353886
 20
-176.6723805004
 10
334.6360848289
 20
-178.1140876394
 10
334.2605946994
 20
-179.5445107257
 10
333.72044203
 20
-180.9572611423
 10
333.0180392738
 20
-182.3460292031
 10
332.1565235319
 20
-183.7046123327
 10
331.1397425428
 20
-185.026942769
 10
329.9722374973
 20
-186.3071146634
 10
328.6592227562
 20
-187.5394104573
 10
327.2065625621
 20
-188.7183264187
 10
325.6207448482
 20
-189.8385972226
 10
323.9088522612
 20
-190.8952194678
 10
322.0785305291
 20
-191.8834740226
 10
320.137954313
 20
-192.7989471025
 10
318.0957906974
 20
-193.6375499823
 10
315.9611604807
 20
-194.3955372582
 10
313.7435974396
 20
-195.0695235748
 10
311.4530057491
 20
-195.6564987456
 10
309.0996157477
 20
-196.1538411972
 10
306.6939382463
 20
-196.5593296773
 10
304.2467175848
 20
-196.871153176
 10
301.7688836447
 20
-197.0879190138
 10
299.2715030337
 20
-197.2086590618
 10
296.7657296601
 20
-197.2328340658
 10
294.262754916
 20
-197.1603360543
 10
291.7737576941
 20
-196.9914888209
 10
289.3098544603
 20
-196.7270464785
 10
286.8820496046
 20
-196.3681900907
 10
284.5011862928
 20
-195.9165223972
 10
282.1778980384
 20
-195.3740606557
 10
279.9225612108
 20
-194.7432276319
 10
277.7452486916
 20
-194.0268407793
 10
275.6556848872
 20
-193.2280996555
 10
273.6632022968
 20
-192.3505716321
 10
271.7766998313
 20
-191.3981759625
 10
270.0046030686
 20
-190.3751662768
 10
268.3548266232
 20
-189.2861115846
 10
266.834738797
 20
-188.1358758686
 10
265.4511286714
 20
-186.9295963607
 10
264.2101757849
 20
-185.672660598
 10
263.1174225346
 20
-184.3706823608
 10
262.1777494216
 20
-183.0294765999
 10
261.3953532541
 20
-181.6550334659
 10
260.7737284035
 20
-180.2534915553
 10
260.3156511971
 20
-178.8311104947
 10
260.023167519
 20
-177.3942429831
 10
259.8975836722
 20
-175.9493064196
 10
259.9394605449
 20
-174.5027542418
 10
260.1486111045
 20
-173.0610471027
 10
260.5241012341
 20
-171.6306240165
 10
261.0642539034
 20
-170.2178735998
 10
261.7666566597
 20
-168.829105539
 10
262.6281724015
 20
-167.4705224095
 10
263.6449533906
 20
-166.1481919731
 10
264.8124584362
 20
-164.8680200788
 10
266.1254731773
 20
-163.6357242848
 10
267.5781333713
 20
-162.4568083234
 10
269.1639510853
 20
-161.3365375195
 10
270.8758436722
 20
-160.2799152744
  0
LWPOLYLINE
  5
E7
330
1F
100
AcDbEntity
  8
0
  6
Continuous
 62
     7
370
    25
100
AcDbPolyline
 90
       89
 70
   128
 43
0.0
 10
274.0578241876
 20
-162.116833526
 10
272.452612013
 20
-163.1121465616
 10
270.9744870162
 20
-164.1710314819
 10
269.6309813833
 20
-165.2880924523
 10
268.428941311
 20
-166.457637186
 10
267.37449212
 20
-167.6737059512
 10
266.4730070417
 20
-168.9301019401
 10
265.7290798374
 20
-170.2204228468
 10
265.1465013897
 20
-171.5380934918
 10
264.7282403846
 20
-172.8763993274
 10
264.4764281846
 20
-174.228520654
 10
264.3923479667
 20
-175.5875673711
 10
264.4764281846
 20
-176.9466140882
 10
264.7282403846
 20
-178.2987354147
 10
265.1465013897
 20
-179.6370412503
 10
265.7290798374
 20
-180.9547118953
 10
266.4730070417
 20
-182.2450328021
 10
267.37449212
 20
-183.501428791
 10
268.428941311
 20
-184.7174975562
 10
269.6309813833
 20
-185.8870422899
 10
270.9744870162
 20
-187.0041032602
 10
272.452612013
 20
-188.0629881806
 10
274.0578241876
 20
-189.0583012162
 10
275.7819437465
 20
-189.9849704798
 10
277.6161849718
 20
-190.8382738774
 10
279.5512009907
 20
-191.6138631704
 10
281.577131405
 20
-192.3077861336
 10
283.6836525377
 20
-192.9165066945
 10
285.8600300399
 20
-193.4369229529
 10
288.095173591
 20
-193.8663829866
 10
290.3776934115
 20
-194.2026983658
 10
292.6959583037
 20
-194.4441553044
 10
295.0381549211
 20
-194.5895233933
 10
297.3923479667
 20
-194.6380618699
 10
299.7465410123
 20
-194.5895233933
 10
302.0887376297
 20
-194.4441553044
 10
304.407002522
 20
-194.2026983658
 10
306.6895223425
 20
-193.8663829866
 10
308.9246658935
 20
-193.4369229529
 10
311.1010433958
 20
-192.9165066945
 10
313.2075645285
 20
-192.3077861336
 10
315.2334949428
 20
-191.6138631704
 10
317.1685109616
 20
-190.8382738774
 10
319.0027521869
 20
-189.9849704798
 10
320.7268717459
 20
-189.0583012162
 10
322.3320839204
 20
-188.0629881806
 10
323.8102089172
 20
-187.0041032602
 10
325.1537145501
 20
-185.8870422899
 10
326.3557546224
 20
-184.7174975562
 10
327.4102038134
 20
-183.501428791
 10
328.3116888917
 20
-182.2450328021
 10
329.055616096
 20
-180.9547118953
 10
329.6381945438
 20
-179.6370412503
 10
330.0564555488
 20
-178.2987354147
 10
330.3082677489
 20
-176.9466140882
 10
330.3923479667
 20
-175.5875673711
 10
330.3082677489
 20
-174.228520654
 10
330.0564555488
 20
-172.8763993274
 10
329.6381945438
 20
-171.5380934918
 10
329.055616096
 20
-170.2204228468
 10
328.3116888917
 20
-168.9301019401
 10
327.4102038134
 20
-167.6737059512
 10
326.3557546224
 20
-166.457637186
 10
325.1537145501
 20
-165.2880924523
 10
323.8102089172
 20
-164.1710314819
 10
322.3320839204
 20
-163.1121465616
 10
320.7268717459
 20
-162.116833526
 10
319.0027521869
 20
-161.1901642624
 10
317.1685109616
 20
-160.3368608648
 10
315.2334949428
 20
-159.5612715718
 10
313.2075645285
 20
-158.8673486086
 10
311.1010433958
 20
-158.2586280476
 10
308.9246658935
 20
-157.7382117893
 10
306.6895223425
 20
-157.3087517556
 10
304.407002522
 20
-156.9724363764
 10
302.0887376297
 20
-156.7309794377
 10
299.7465410123
 20
-156.5856113489
 10
297.3923479667
 20
-156.5370728723
 10
295.0381549211
 20
-156.5856113489
 10
292.6959583037
 20
-156.7309794377
 10
290.3776934115
 20
-156.9724363764
 10
288.095173591
 20
-157.3087517556
 10
285.8600300399
 20
-157.7382117893
 10
283.6836525377
 20
-158.2586280476
 10
281.577131405
 20
-158.8673486086
 10
279.5512009907
 20
-159.5612715718
 10
277.6161849718
 20
-160.3368608648
 10
275.7819437465
 20
-161.1901642624
 10
274.0578241876
 20
-162.116833526
  0
LWPOLYLINE
  5
E8
330
1F
100
AcDbEntity
  8
0
  6
Continuous
 62
     1
370
    25
100
AcDbPolyline
 90
       13
 70
   128
 43
0.0
 10
323.9088522612
 20
-88.0160534225
 10
325.6799594208
 20
-88.9701130197
 10
327.4431563858
 20
-89.7831539494
 10
329.1905682906
 20
-90.4515449736
 10
330.9143907695
 20
-90.9723008956
 10
332.6069248128
 20
-91.3430958931
 10
334.2606111526
 20
-91.5622739056
 10
335.8680640243
 20
-91.6288560309
 10
337.4221041531
 20
-91.5425448972
 10
338.9157908185
 20
-91.3037259907
 10
340.3424528533
 20
-90.9134659348
 10
341.6957184386
 20
-90.3735077256
 10
342.6573284981
 20
-89.8726053161
  0
LWPOLYLINE
  5
E9
330
1F
100
AcDbEntity
  8
0
  6
Continuous
 62
     1
370
    25
100
AcDbPolyline
 90
       37
 70
   128
 43
0.0
 10
305.1603760243
 20
-24.9189406375
 10
304.8481609607
 20
-25.105283006
 10
303.659465512
 20
-25.9367449509
 10
302.5612087401
 20
-26.9087105517
 10
301.5582957264
 20
-28.0168387742
 10
300.6552057239
 20
-29.2561804487
 10
299.8559721517
 20
-30.6212003744
 10
299.164164581
 20
-32.105802041
 10
298.5828727923
 20
-33.703354857
 10
298.114692976
 20
-35.4067237637
 10
297.7617161366
 20
-37.2083011021
 10
297.5255187545
 20
-39.1000405906
 10
297.4071557445
 20
-41.0734932612
 10
297.4071557445
 20
-43.1198451953
 10
297.5255187545
 20
-45.2299568884
 10
297.7617161366
 20
-47.3944040695
 10
298.114692976
 20
-49.603519792
 10
298.5828727923
 20
-51.8474376088
 10
299.164164581
 20
-54.1161356383
 10
299.8559721517
 20
-56.3994813242
 10
300.6552057239
 20
-58.6872766905
 10
301.5582957264
 20
-60.9693038877
 10
302.5612087401
 20
-63.2353708284
 10
303.659465512
 20
-65.4753567075
 10
304.8481609607
 20
-67.6792572043
 10
306.1219860838
 20
-69.8372291642
 10
307.4752516691
 20
-71.9396345605
 10
308.9019137039
 20
-73.9770835404
 10
310.3956003694
 20
-75.9404763622
 10
311.9496404982
 20
-77.8210440369
 10
313.5570933698
 20
-79.6103874927
 10
315.2107797096
 20
-81.3005150874
 10
316.9033137529
 20
-82.8838783008
 10
318.6271362318
 20
-84.3534054486
 10
320.3745481366
 20
-85.7025332656
 10
322.1377451017
 20
-86.9252362197
 10
323.9088522612
 20
-88.0160534225
  0
LWPOLYLINE
  5
EA
330
1F
100
AcDbEntity
  8
0
  6
Continuous
 62
     1
370
    25
100
AcDbPolyline
 90
       13
 70
   128
 43
0.0
 10
323.9088522612
 20
-88.0160534225
 10
325.6207448482
 20
-89.0726756676
 10
327.2065625621
 20
-90.1929464716
 10
328.6592227562
 20
-91.3718624329
 10
329.9722374973
 20
-92.6041582269
 10
331.1397425428
 20
-93.8843301212
 10
332.1565235319
 20
-95.2066605576
 10
333.0180392738
 20
-96.5652436872
 10
333.72044203
 20
-97.9540117479
 10
334.2605946994
 20
-99.3667621646
 10
334.6360848289
 20
-100.7971852508
 10
334.8452353886
 20
-102.2388923899
 10
334.8923479667
 20
-103.3237055192
  0
LWPOLYLINE
  5
EB
330
1F
100
AcDbEntity
  8
0
  6
Continuous
 62
     1
370
    25
100
AcDbPolyline
 90
       37
 70
   128
 43
0.0
 10
259.8923479667
 20
-103.3237055192
 10
259.8975836723
 20
-102.9619664706
 10
260.023167519
 20
-101.5170299072
 10
260.3156511971
 20
-100.0801623956
 10
260.7737284035
 20
-98.6577813349
 10
261.3953532541
 20
-97.2562394244
 10
262.1777494216
 20
-95.8817962903
 10
263.1174225346
 20
-94.5405905294
 10
264.2101757849
 20
-93.2386122922
 10
265.4511286714
 20
-91.9816765295
 10
266.834738797
 20
-90.7753970216
 10
268.3548266232
 20
-89.6251613057
 10
270.0046030686
 20
-88.5361066135
 10
271.7766998313
 20
-87.5130969278
 10
273.6632022968
 20
-86.5607012581
 10
275.6556848872
 20
-85.6831732348
 10
277.7452486916
 20
-84.8844321109
 10
279.9225612108
 20
-84.1680452583
 10
282.1778980384
 20
-83.5372122346
 10
284.5011862928
 20
-82.994750493
 10
286.8820496046
 20
-82.5430827996
 10
289.3098544603
 20
-82.1842264118
 10
291.7737576941
 20
-81.9197840693
 10
294.262754916
 20
-81.750936836
 10
296.7657296601
 20
-81.6784388244
 10
299.2715030337
 20
-81.7026138284
 10
301.7688836447
 20
-81.8233538765
 10
304.2467175848
 20
-82.0401197143
 10
306.6939382463
 20
-82.351943213
 10
309.0996157477
 20
-82.7574316931
 10
311.4530057491
 20
-83.2547741446
 10
313.7435974396
 20
-83.8417493155
 10
315.9611604807
 20
-84.5157356321
 10
318.0957906974
 20
-85.2737229079
 10
320.137954313
 20
-86.1123257878
 10
322.0785305291
 20
-87.0277988676
 10
323.9088522612
 20
-88.0160534225
  0
ENDSEC
  0
SECTION
  2
OBJECTS
  0
DICTIONARY
  5
C
330
0
100
AcDbDictionary
281
     1
  3
ACAD_GROUP
350
D
  3
ACAD_LAYOUT
350
1A
  3
ACAD_MLINESTYLE
350
17
  3
ACAD_PLOTSETTINGS
350
19
  3
ACAD_PLOTSTYLENAME
350
E
  3
ACAD_SCALELIST
350
47
  3
DWGPROPS
350
EC
  0
DICTIONARY
  5
D
102
{ACAD_REACTORS
330
C
102
}
330
C
100
AcDbDictionary
281
     1
  0
DICTIONARY
  5
1A
102
{ACAD_REACTORS
330
C
102
}
330
C
100
AcDbDictionary
281
     1
  3
Layout1
350
1E
  3
Layout2
350
26
  3
Model
350
22
  0
DICTIONARY
  5
17
102
{ACAD_REACTORS
330
C
102
}
330
C
100
AcDbDictionary
281
     1
  3
Standard
350
18
  0
DICTIONARY
  5
19
102
{ACAD_REACTORS
330
C
102
}
330
C
100
AcDbDictionary
281
     1
  0
ACDBDICTIONARYWDFLT
  5
E
102
{ACAD_REACTORS
330
C
102
}
330
C
100
AcDbDictionary
281
     1
  3
Normal
350
F
100
AcDbDictionaryWithDefault
340
F
  0
DICTIONARY
  5
47
102
{ACAD_REACTORS
330
C
102
}
330
C
100
AcDbDictionary
281
     1
  3
A0
350
48
  3
A1
350
49
  3
A2
350
4A
  3
A3
350
4B
  3
A4
350
4C
  3
A5
350
4D
  3
A6
350
4E
  3
A7
350
4F
  3
A8
350
50
  3
A9
350
51
  3
B0
350
52
  3
B1
350
53
  3
B2
350
54
  3
B3
350
55
  3
B4
350
56
  3
B5
350
57
  3
B6
350
58
  3
B7
350
59
  3
B8
350
5A
  3
B9
350
5B
  3
C0
350
5C
  3
C1
350
5D
  3
C2
350
5E
  3
C3
350
5F
  3
C4
350
60
  3
C5
350
61
  3
C6
350
62
  3
C7
350
63
  3
C8
350
64
  3
C9
350
65
  3
D0
350
66
  3
D1
350
67
  3
D2
350
68
  0
XRECORD
  5
EC
102
{ACAD_REACTORS
330
C
102
}
330
C
100
AcDbXrecord
280
     1
  1
DWGPROPS COOKIE
  2

  3

  4

  6

  7

  8
b.kav
  9

300
=
301
=
302
=
303
=
304
=
305
=
306
=
307
=
308
=
309
=
 40
0.0
 41
2459935.574817048
 42
2459935.574817222
  1

 90
        0
  0
LAYOUT
  5
1E
102
{ACAD_REACTORS
330
1A
102
}
330
1A
100
AcDbPlotSettings
  1

  2
none_device
  4

  6

 40
0.0
 41
0.0
 42
0.0
 43
0.0
 44
0.0
 45
0.0
 46
0.0
 47
0.0
 48
0.0
 49
0.0
140
0.0
141
0.0
142
1.0
143
1.0
 70
   688
 72
     1
 73
     0
 74
     5
  7

 75
    16
147
1.0
148
0.0
149
0.0
100
AcDbLayout
  1
Layout1
 70
     1
 71
     1
 10
0.0
 20
0.0
 11
420.0
 21
297.0
 12
0.0
 22
0.0
 32
0.0
 14
1.0000000000E+20
 24
1.0000000000E+20
 34
1.0000000000E+20
 15
-1.0000000000E+20
 25
-1.0000000000E+20
 35
-1.0000000000E+20
146
0.0
 13
0.0
 23
0.0
 33
0.0
 16
1.0
 26
0.0
 36
0.0
 17
0.0
 27
1.0
 37
0.0
 76
     0
330
1B
  0
LAYOUT
  5
26
102
{ACAD_REACTORS
330
1A
102
}
330
1A
100
AcDbPlotSettings
  1

  2
none_device
  4

  6

 40
0.0
 41
0.0
 42
0.0
 43
0.0
 44
0.0
 45
0.0
 46
0.0
 47
0.0
 48
0.0
 49
0.0
140
0.0
141
0.0
142
1.0
143
1.0
 70
   688
 72
     1
 73
     0
 74
     5
  7

 75
    16
147
1.0
148
0.0
149
0.0
100
AcDbLayout
  1
Layout2
 70
     1
 71
     2
 10
0.0
 20
0.0
 11
0.0
 21
0.0
 12
0.0
 22
0.0
 32
0.0
 14
0.0
 24
0.0
 34
0.0
 15
0.0
 25
0.0
 35
0.0
146
0.0
 13
0.0
 23
0.0
 33
0.0
 16
1.0
 26
0.0
 36
0.0
 17
0.0
 27
1.0
 37
0.0
 76
     0
330
23
  0
LAYOUT
  5
22
102
{ACAD_REACTORS
330
1A
102
}
330
1A
100
AcDbPlotSettings
  1

  2
none_device
  4
Letter_(8.50_x_11.00_Inches)
  6

 40
6.35
 41
6.35
 42
6.35000508
 43
6.35000508
 44
215.9
 45
279.4
 46
0.0
 47
0.0
 48
0.0
 49
0.0
140
0.0
141
0.0
142
1.0
143
1.0
 70
  1712
 72
     1
 73
     0
 74
     0
  7

 75
     0
147
1.0
148
0.0
149
0.0
100
AcDbLayout
  1
Model
 70
     1
 71
     0
 10
0.0
 20
0.0
 11
279.4
 21
215.9
 12
0.0
 22
0.0
 32
0.0
 14
0.0
 24
0.0
 34
0.0
 15
279.4
 25
215.9
 35
0.0
146
0.0
 13
0.0
 23
0.0
 33
0.0
 16
1.0
 26
0.0
 36
0.0
 17
0.0
 27
1.0
 37
0.0
 76
     0
330
1F
331
29
  0
MLINESTYLE
  5
18
102
{ACAD_REACTORS
330
17
102
}
330
17
100
AcDbMlineStyle
  2
Standard
 70
     0
  3

 62
   256
 51
90.0
 52
90.0
 71
     2
 49
0.5
 62
   256
  6
BYLAYER
 49
-0.5
 62
   256
  6
BYLAYER
  0
ACDBPLACEHOLDER
  5
F
102
{ACAD_REACTORS
330
E
102
}
330
E
  0
SCALE
  5
48
102
{ACAD_REACTORS
330
47
102
}
330
47
100
AcDbScale
 70
     0
300
1:1
140
1.0
141
1.0
290
     1
  0
SCALE
  5
49
102
{ACAD_REACTORS
330
47
102
}
330
47
100
AcDbScale
 70
     0
300
1:2
140
1.0
141
2.0
290
     0
  0
SCALE
  5
4A
102
{ACAD_REACTORS
330
47
102
}
330
47
100
AcDbScale
 70
     0
300
1:4
140
1.0
141
4.0
290
     0
  0
SCALE
  5
4B
102
{ACAD_REACTORS
330
47
102
}
330
47
100
AcDbScale
 70
     0
300
1:5
140
1.0
141
5.0
290
     0
  0
SCALE
  5
4C
102
{ACAD_REACTORS
330
47
102
}
330
47
100
AcDbScale
 70
     0
300
1:8
140
1.0
141
8.0
290
     0
  0
SCALE
  5
4D
102
{ACAD_REACTORS
330
47
102
}
330
47
100
AcDbScale
 70
     0
300
1:10
140
1.0
141
10.0
290
     0
  0
SCALE
  5
4E
102
{ACAD_REACTORS
330
47
102
}
330
47
100
AcDbScale
 70
     0
300
1:16
140
1.0
141
16.0
290
     0
  0
SCALE
  5
4F
102
{ACAD_REACTORS
330
47
102
}
330
47
100
AcDbScale
 70
     0
300
1:20
140
1.0
141
20.0
290
     0
  0
SCALE
  5
50
102
{ACAD_REACTORS
330
47
102
}
330
47
100
AcDbScale
 70
     0
300
1:30
140
1.0
141
30.0
290
     0
  0
SCALE
  5
51
102
{ACAD_REACTORS
330
47
102
}
330
47
100
AcDbScale
 70
     0
300
1:40
140
1.0
141
40.0
290
     0
  0
SCALE
  5
52
102
{ACAD_REACTORS
330
47
102
}
330
47
100
AcDbScale
 70
     0
300
1:50
140
1.0
141
50.0
290
     0
  0
SCALE
  5
53
102
{ACAD_REACTORS
330
47
102
}
330
47
100
AcDbScale
 70
     0
300
1:100
140
1.0
141
100.0
290
     0
  0
SCALE
  5
54
102
{ACAD_REACTORS
330
47
102
}
330
47
100
AcDbScale
 70
     0
300
2:1
140
2.0
141
1.0
290
     0
  0
SCALE
  5
55
102
{ACAD_REACTORS
330
47
102
}
330
47
100
AcDbScale
 70
     0
300
4:1
140
4.0
141
1.0
290
     0
  0
SCALE
  5
56
102
{ACAD_REACTORS
330
47
102
}
330
47
100
AcDbScale
 70
     0
300
8:1
140
8.0
141
1.0
290
     0
  0
SCALE
  5
57
102
{ACAD_REACTORS
330
47
102
}
330
47
100
AcDbScale
 70
     0
300
10:1
140
10.0
141
1.0
290
     0
  0
SCALE
  5
58
102
{ACAD_REACTORS
330
47
102
}
330
47
100
AcDbScale
 70
     0
300
100:1
140
100.0
141
1.0
290
     0
  0
SCALE
  5
59
102
{ACAD_REACTORS
330
47
102
}
330
47
100
AcDbScale
 70
     0
300
1/128" = 1'-0"
140
0.0078125
141
12.0
290
     0
  0
SCALE
  5
5A
102
{ACAD_REACTORS
330
47
102
}
330
47
100
AcDbScale
 70
     0
300
1/64" = 1'-0"
140
0.015625
141
12.0
290
     0
  0
SCALE
  5
5B
102
{ACAD_REACTORS
330
47
102
}
330
47
100
AcDbScale
 70
     0
300
1/32" = 1'-0"
140
0.03125
141
12.0
290
     0
  0
SCALE
  5
5C
102
{ACAD_REACTORS
330
47
102
}
330
47
100
AcDbScale
 70
     0
300
1/16" = 1'-0"
140
0.0625
141
12.0
290
     0
  0
SCALE
  5
5D
102
{ACAD_REACTORS
330
47
102
}
330
47
100
AcDbScale
 70
     0
300
3/32" = 1'-0"
140
0.09375
141
12.0
290
     0
  0
SCALE
  5
5E
102
{ACAD_REACTORS
330
47
102
}
330
47
100
AcDbScale
 70
     0
300
1/8" = 1'-0"
140
0.125
141
12.0
290
     0
  0
SCALE
  5
5F
102
{ACAD_REACTORS
330
47
102
}
330
47
100
AcDbScale
 70
     0
300
3/16" = 1'-0"
140
0.1875
141
12.0
290
     0
  0
SCALE
  5
60
102
{ACAD_REACTORS
330
47
102
}
330
47
100
AcDbScale
 70
     0
300
1/4" = 1'-0"
140
0.25
141
12.0
290
     0
  0
SCALE
  5
61
102
{ACAD_REACTORS
330
47
102
}
330
47
100
AcDbScale
 70
     0
300
3/8" = 1'-0"
140
0.375
141
12.0
290
     0
  0
SCALE
  5
62
102
{ACAD_REACTORS
330
47
102
}
330
47
100
AcDbScale
 70
     0
300
1/2" = 1'-0"
140
0.5
141
12.0
290
     0
  0
SCALE
  5
63
102
{ACAD_REACTORS
330
47
102
}
330
47
100
AcDbScale
 70
     0
300
3/4" = 1'-0"
140
0.75
141
12.0
290
     0
  0
SCALE
  5
64
102
{ACAD_REACTORS
330
47
102
}
330
47
100
AcDbScale
 70
     0
300
1" = 1'-0"
140
1.0
141
12.0
290
     0
  0
SCALE
  5
65
102
{ACAD_REACTORS
330
47
102
}
330
47
100
AcDbScale
 70
     0
300
1-1/2" = 1'-0"
140
1.5
141
12.0
290
     0
  0
SCALE
  5
66
102
{ACAD_REACTORS
330
47
102
}
330
47
100
AcDbScale
 70
     0
300
3" = 1'-0"
140
3.0
141
12.0
290
     0
  0
SCALE
  5
67
102
{ACAD_REACTORS
330
47
102
}
330
47
100
AcDbScale
 70
     0
300
6" = 1'-0"
140
6.0
141
12.0
290
     0
  0
SCALE
  5
68
102
{ACAD_REACTORS
330
47
102
}
330
47
100
AcDbScale
 70
     0
300
1'-0" = 1'-0"
140
12.0
141
12.0
290
     0
  0
ENDSEC
  0
EOF
